ISO-10303-21;
HEADER;
FILE_DESCRIPTION(('CATIA V5 STEP Exchange'),'2;1');

FILE_NAME('C:\\Users\\Astroboy\\Desktop\\RIDIX\\30_SCORRIMENTI_ISO\\20_BOCCOLE\\RDGS301\\STEP\\RDGS301.3070.stp','2017-03-19T22:31:04+00:00',('none'),('none'),'CATIA Version 5 Release 19 GA (IN-10)','CATIA V5 STEP AP203','none');

FILE_SCHEMA(('CONFIG_CONTROL_DESIGN'));

ENDSEC;
/* file written by CATIA V5R19 */
DATA;
#5=PRODUCT('RDGS301.3070','','BOCCOLA AUTOLUBRIFICANTE\X2\000D\X0\\X2\000A\X0\NORMATIVE AUTOMOTIVE',(#2)) ;
#1=APPLICATION_CONTEXT('configuration controlled 3D design of mechanical parts and assemblies') ;
#14=PRODUCT_DEFINITION('',' ',#6,#3) ;
#16=SECURITY_CLASSIFICATION(' ',' ',#15) ;
#15=SECURITY_CLASSIFICATION_LEVEL('unclassified') ;
#47=CARTESIAN_POINT(' ',(0.,0.,0.)) ;
#51=CARTESIAN_POINT('Line Origine',(0.,0.,0.)) ;
#55=CARTESIAN_POINT('Limit',(0.,0.,0.)) ;
#56=CARTESIAN_POINT('Limit',(20.,0.,0.)) ;
#63=CARTESIAN_POINT('Line Origine',(0.,0.,0.)) ;
#67=CARTESIAN_POINT('Limit',(0.,0.,0.)) ;
#68=CARTESIAN_POINT('Limit',(0.,20.,0.)) ;
#72=CARTESIAN_POINT('Line Origine',(0.,0.,0.)) ;
#76=CARTESIAN_POINT('Limit',(0.,0.,0.)) ;
#77=CARTESIAN_POINT('Limit',(0.,0.,20.)) ;
#81=CARTESIAN_POINT('Punto.1',(0.,0.,0.)) ;
#83=CARTESIAN_POINT('Axis2P3D Location',(0.,0.,-35.)) ;
#88=CARTESIAN_POINT('Axis2P3D Location',(0.,0.,0.)) ;
#92=CARTESIAN_POINT('Vertex',(-13.1637384284,7.19138307906,0.)) ;
#94=CARTESIAN_POINT('Vertex',(13.1637384284,-7.19138307906,0.)) ;
#97=CARTESIAN_POINT('Line Origine',(-13.1637384284,7.19138307906,-35.)) ;
#101=CARTESIAN_POINT('Vertex',(-13.1637384284,7.19138307906,-1.1)) ;
#104=CARTESIAN_POINT('Axis2P3D Location',(0.,0.,-1.1)) ;
#108=CARTESIAN_POINT('Vertex',(13.1637384284,-7.19138307906,-1.1)) ;
#111=CARTESIAN_POINT('Line Origine',(13.1637384284,-7.19138307906,-35.)) ;
#123=CARTESIAN_POINT('Axis2P3D Location',(0.,0.,0.)) ;
#128=CARTESIAN_POINT('Axis2P3D Location',(0.,0.,-1.1)) ;
#140=CARTESIAN_POINT('Axis2P3D Location',(0.,0.,-35.)) ;
#145=CARTESIAN_POINT('Axis2P3D Location',(0.,0.,-1.1)) ;
#149=CARTESIAN_POINT('Vertex',(-14.0413209902,7.67080861767,-1.1)) ;
#151=CARTESIAN_POINT('Vertex',(14.0413209902,-7.67080861767,-1.1)) ;
#154=CARTESIAN_POINT('Line Origine',(-14.0413209902,7.67080861767,-1.85)) ;
#158=CARTESIAN_POINT('Vertex',(-14.0413209902,7.67080861767,-2.6)) ;
#161=CARTESIAN_POINT('Axis2P3D Location',(0.,0.,-2.6)) ;
#165=CARTESIAN_POINT('Vertex',(14.0413209902,-7.67080861767,-2.6)) ;
#168=CARTESIAN_POINT('Line Origine',(14.0413209902,-7.67080861767,-1.85)) ;
#180=CARTESIAN_POINT('Axis2P3D Location',(0.,0.,-1.1)) ;
#185=CARTESIAN_POINT('Axis2P3D Location',(0.,0.,-2.6)) ;
#197=CARTESIAN_POINT('Axis2P3D Location',(0.,0.,-2.6)) ;
#201=CARTESIAN_POINT('Vertex',(-13.1637384284,7.19138307906,-2.6)) ;
#203=CARTESIAN_POINT('Vertex',(13.1637384284,-7.19138307906,-2.6)) ;
#206=CARTESIAN_POINT('Line Origine',(-13.1637384284,7.19138307906,-35.)) ;
#210=CARTESIAN_POINT('Vertex',(-13.1637384284,7.19138307906,-70.)) ;
#213=CARTESIAN_POINT('Axis2P3D Location',(0.,0.,-70.)) ;
#217=CARTESIAN_POINT('Vertex',(13.1637384284,-7.19138307906,-70.)) ;
#220=CARTESIAN_POINT('Line Origine',(13.1637384284,-7.19138307906,-35.)) ;
#232=CARTESIAN_POINT('Axis2P3D Location',(0.,0.,-2.6)) ;
#237=CARTESIAN_POINT('Axis2P3D Location',(0.,0.,-70.)) ;
#249=CARTESIAN_POINT('Axis2P3D Location',(-15.,0.,-1.1)) ;
#263=CARTESIAN_POINT('Axis2P3D Location',(-16.,0.,-2.6)) ;
#277=CARTESIAN_POINT('Axis2P3D Location',(-15.,0.,0.)) ;
#282=CARTESIAN_POINT('Axis2P3D Location',(-7.1054273576E-015,2.88657986403E-015,0.)) ;
#286=CARTESIAN_POINT('Vertex',(-15.796486114,8.62965969488,0.)) ;
#288=CARTESIAN_POINT('Vertex',(15.7964858755,-8.62966013144,0.)) ;
#291=CARTESIAN_POINT('Axis2P3D Location',(-3.5527136788E-015,3.33066907388E-015,0.)) ;
#305=CARTESIAN_POINT('Axis2P3D Location',(1.59872115546E-014,3.19744231092E-014,18.)) ;
#310=CARTESIAN_POINT('Line Origine',(16.2352771268,-8.86937295515,-0.5)) ;
#314=CARTESIAN_POINT('Vertex',(16.6740686759,-9.10908523348,-1.)) ;
#317=CARTESIAN_POINT('Line Origine',(-16.235277395,8.86937246418,-0.5)) ;
#321=CARTESIAN_POINT('Vertex',(-16.6740686759,9.10908523348,-1.)) ;
#324=CARTESIAN_POINT('Axis2P3D Location',(-8.881784197E-016,-1.7763568394E-015,-1.)) ;
#336=CARTESIAN_POINT('Axis2P3D Location',(1.39444011893E-013,1.66977542904E-013,18.)) ;
#341=CARTESIAN_POINT('Axis2P3D Location',(-3.99680288865E-015,-1.7763568394E-015,-1.)) ;
#353=CARTESIAN_POINT('Axis2P3D Location',(-19.,0.,-70.)) ;
#358=CARTESIAN_POINT('Axis2P3D Location',(0.,9.99200722163E-016,-70.)) ;
#362=CARTESIAN_POINT('Vertex',(15.7964858755,-8.62966013145,-70.)) ;
#364=CARTESIAN_POINT('Vertex',(-15.796486114,8.62965969488,-70.)) ;
#367=CARTESIAN_POINT('Axis2P3D Location',(-3.5527136788E-015,6.66133814775E-016,-70.)) ;
#381=CARTESIAN_POINT('Axis2P3D Location',(0.,0.,-35.)) ;
#386=CARTESIAN_POINT('Line Origine',(-16.6740686759,9.10908523348,-35.)) ;
#390=CARTESIAN_POINT('Vertex',(-16.6740686759,9.10908523348,-69.)) ;
#393=CARTESIAN_POINT('Line Origine',(16.6740686759,-9.10908523348,-35.)) ;
#397=CARTESIAN_POINT('Vertex',(16.6740686759,-9.10908523348,-69.)) ;
#400=CARTESIAN_POINT('Axis2P3D Location',(0.,0.,-69.)) ;
#412=CARTESIAN_POINT('Axis2P3D Location',(0.,0.,-69.)) ;
#424=CARTESIAN_POINT('Axis2P3D Location',(-7.06101843662E-014,-2.84217094304E-014,-88.)) ;
#429=CARTESIAN_POINT('Line Origine',(16.235277395,-8.86937246418,-69.5)) ;
#434=CARTESIAN_POINT('Line Origine',(-16.235277395,8.86937246418,-69.5)) ;
#446=CARTESIAN_POINT('Axis2P3D Location',(-2.53130849615E-014,-3.19744231092E-014,-88.)) ;
#52=DIRECTION('Vector Direction',(1.,0.,0.)) ;
#64=DIRECTION('Vector Direction',(0.,1.,0.)) ;
#73=DIRECTION('Vector Direction',(0.,0.,1.)) ;
#84=DIRECTION('Axis2P3D Direction',(0.,0.,-1.)) ;
#85=DIRECTION('Axis2P3D XDirection',(-0.87758256189,0.479425538604,-0.)) ;
#89=DIRECTION('Axis2P3D Direction',(0.,0.,-1.)) ;
#98=DIRECTION('Vector Direction',(0.,0.,-1.)) ;
#105=DIRECTION('Axis2P3D Direction',(0.,0.,-1.)) ;
#112=DIRECTION('Vector Direction',(0.,0.,-1.)) ;
#124=DIRECTION('Axis2P3D Direction',(0.,0.,-1.)) ;
#129=DIRECTION('Axis2P3D Direction',(0.,0.,-1.)) ;
#141=DIRECTION('Axis2P3D Direction',(0.,0.,-1.)) ;
#142=DIRECTION('Axis2P3D XDirection',(-0.87758256189,0.479425538604,-0.)) ;
#146=DIRECTION('Axis2P3D Direction',(0.,0.,-1.)) ;
#155=DIRECTION('Vector Direction',(0.,0.,-1.)) ;
#162=DIRECTION('Axis2P3D Direction',(0.,0.,-1.)) ;
#169=DIRECTION('Vector Direction',(0.,0.,-1.)) ;
#181=DIRECTION('Axis2P3D Direction',(0.,0.,-1.)) ;
#186=DIRECTION('Axis2P3D Direction',(0.,0.,-1.)) ;
#198=DIRECTION('Axis2P3D Direction',(0.,0.,-1.)) ;
#207=DIRECTION('Vector Direction',(0.,0.,-1.)) ;
#214=DIRECTION('Axis2P3D Direction',(0.,0.,-1.)) ;
#221=DIRECTION('Vector Direction',(0.,0.,-1.)) ;
#233=DIRECTION('Axis2P3D Direction',(0.,0.,-1.)) ;
#238=DIRECTION('Axis2P3D Direction',(0.,0.,-1.)) ;
#250=DIRECTION('Axis2P3D Direction',(0.,0.,-1.)) ;
#251=DIRECTION('Axis2P3D XDirection',(1.,0.,0.)) ;
#264=DIRECTION('Axis2P3D Direction',(0.,0.,-1.)) ;
#265=DIRECTION('Axis2P3D XDirection',(1.,0.,0.)) ;
#278=DIRECTION('Axis2P3D Direction',(0.,0.,-1.)) ;
#279=DIRECTION('Axis2P3D XDirection',(1.,0.,0.)) ;
#283=DIRECTION('Axis2P3D Direction',(0.,0.,-1.)) ;
#292=DIRECTION('Axis2P3D Direction',(0.,0.,-1.)) ;
#306=DIRECTION('Axis2P3D Direction',(-8.881784197E-016,-1.7763568394E-015,-1.)) ;
#307=DIRECTION('Axis2P3D XDirection',(0.994404835874,-0.105636274031,-6.58544507983E-016)) ;
#311=DIRECTION('Vector Direction',(0.620544570312,-0.339005068187,-0.707106781187)) ;
#318=DIRECTION('Vector Direction',(-0.620544580564,0.339005049421,-0.707106781187)) ;
#325=DIRECTION('Axis2P3D Direction',(-1.96509000958E-016,-1.8498333327E-015,-1.)) ;
#337=DIRECTION('Axis2P3D Direction',(-7.54951656745E-015,-8.881784197E-015,-1.)) ;
#338=DIRECTION('Axis2P3D XDirection',(-0.87758256189,0.479425538604,2.37076022874E-015)) ;
#342=DIRECTION('Axis2P3D Direction',(-5.47212952648E-015,-1.00166659099E-014,-1.)) ;
#354=DIRECTION('Axis2P3D Direction',(0.,0.,-1.)) ;
#355=DIRECTION('Axis2P3D XDirection',(1.,0.,0.)) ;
#359=DIRECTION('Axis2P3D Direction',(0.,0.,-1.)) ;
#368=DIRECTION('Axis2P3D Direction',(0.,0.,-1.)) ;
#382=DIRECTION('Axis2P3D Direction',(0.,0.,-1.)) ;
#383=DIRECTION('Axis2P3D XDirection',(-0.87758256189,0.479425538604,-0.)) ;
#387=DIRECTION('Vector Direction',(0.,0.,-1.)) ;
#394=DIRECTION('Vector Direction',(0.,0.,-1.)) ;
#401=DIRECTION('Axis2P3D Direction',(0.,0.,-1.)) ;
#413=DIRECTION('Axis2P3D Direction',(0.,0.,-1.)) ;
#425=DIRECTION('Axis2P3D Direction',(3.99680288865E-015,1.7763568394E-015,1.)) ;
#426=DIRECTION('Axis2P3D XDirection',(0.907565387973,-0.41991078404,-2.89759583512E-015)) ;
#430=DIRECTION('Vector Direction',(0.620544580564,-0.339005049421,0.707106781187)) ;
#435=DIRECTION('Vector Direction',(-0.620544580564,0.339005049421,0.707106781187)) ;
#447=DIRECTION('Axis2P3D Direction',(1.33226762955E-015,1.7763568394E-015,1.)) ;
#448=DIRECTION('Axis2P3D XDirection',(-0.87758256189,0.479425538604,2.63417803193E-016)) ;
#48=AXIS2_PLACEMENT_3D(' ',#47,$,$) ;
#86=AXIS2_PLACEMENT_3D('Cylinder Axis2P3D',#83,#84,#85) ;
#90=AXIS2_PLACEMENT_3D('Circle Axis2P3D',#88,#89,$) ;
#106=AXIS2_PLACEMENT_3D('Circle Axis2P3D',#104,#105,$) ;
#125=AXIS2_PLACEMENT_3D('Circle Axis2P3D',#123,#124,$) ;
#130=AXIS2_PLACEMENT_3D('Circle Axis2P3D',#128,#129,$) ;
#143=AXIS2_PLACEMENT_3D('Cylinder Axis2P3D',#140,#141,#142) ;
#147=AXIS2_PLACEMENT_3D('Circle Axis2P3D',#145,#146,$) ;
#163=AXIS2_PLACEMENT_3D('Circle Axis2P3D',#161,#162,$) ;
#182=AXIS2_PLACEMENT_3D('Circle Axis2P3D',#180,#181,$) ;
#187=AXIS2_PLACEMENT_3D('Circle Axis2P3D',#185,#186,$) ;
#199=AXIS2_PLACEMENT_3D('Circle Axis2P3D',#197,#198,$) ;
#215=AXIS2_PLACEMENT_3D('Circle Axis2P3D',#213,#214,$) ;
#234=AXIS2_PLACEMENT_3D('Circle Axis2P3D',#232,#233,$) ;
#239=AXIS2_PLACEMENT_3D('Circle Axis2P3D',#237,#238,$) ;
#252=AXIS2_PLACEMENT_3D('Plane Axis2P3D',#249,#250,#251) ;
#266=AXIS2_PLACEMENT_3D('Plane Axis2P3D',#263,#264,#265) ;
#280=AXIS2_PLACEMENT_3D('Plane Axis2P3D',#277,#278,#279) ;
#284=AXIS2_PLACEMENT_3D('Circle Axis2P3D',#282,#283,$) ;
#293=AXIS2_PLACEMENT_3D('Circle Axis2P3D',#291,#292,$) ;
#308=AXIS2_PLACEMENT_3D('Cone Axis2P3D',#305,#306,#307) ;
#326=AXIS2_PLACEMENT_3D('Circle Axis2P3D',#324,#325,$) ;
#339=AXIS2_PLACEMENT_3D('Cone Axis2P3D',#336,#337,#338) ;
#343=AXIS2_PLACEMENT_3D('Circle Axis2P3D',#341,#342,$) ;
#356=AXIS2_PLACEMENT_3D('Plane Axis2P3D',#353,#354,#355) ;
#360=AXIS2_PLACEMENT_3D('Circle Axis2P3D',#358,#359,$) ;
#369=AXIS2_PLACEMENT_3D('Circle Axis2P3D',#367,#368,$) ;
#384=AXIS2_PLACEMENT_3D('Cylinder Axis2P3D',#381,#382,#383) ;
#402=AXIS2_PLACEMENT_3D('Circle Axis2P3D',#400,#401,$) ;
#414=AXIS2_PLACEMENT_3D('Circle Axis2P3D',#412,#413,$) ;
#427=AXIS2_PLACEMENT_3D('Cone Axis2P3D',#424,#425,#426) ;
#449=AXIS2_PLACEMENT_3D('Cone Axis2P3D',#446,#447,#448) ;
#40=PRODUCT_DEFINITION_SHAPE(' ',' ',#14) ;
#59=COMPOSITE_CURVE('Linea.1',(#58),.U.) ;
#71=COMPOSITE_CURVE('Linea.2',(#70),.U.) ;
#80=COMPOSITE_CURVE('Linea.3',(#79),.U.) ;
#58=COMPOSITE_CURVE_SEGMENT(.DISCONTINUOUS.,.T.,#57) ;
#70=COMPOSITE_CURVE_SEGMENT(.DISCONTINUOUS.,.T.,#69) ;
#79=COMPOSITE_CURVE_SEGMENT(.DISCONTINUOUS.,.T.,#78) ;
#31=APPROVAL_PERSON_ORGANIZATION(#25,#21,#19) ;
#25=PERSON_AND_ORGANIZATION(#22,#23) ;
#22=PERSON(' ',' ',' ',$,$,$) ;
#23=ORGANIZATION(' ',' ',' ') ;
#21=APPROVAL(#20,' ') ;
#20=APPROVAL_STATUS('not_yet_approved') ;
#19=APPROVAL_ROLE('APPROVER') ;
#13=DATE_AND_TIME(#11,#12) ;
#12=LOCAL_TIME(23,31,4.,#10) ;
#10=COORDINATED_UNIVERSAL_TIME_OFFSET(0,0,.AHEAD.) ;
#117=ORIENTED_EDGE('',*,*,#96,.F.) ;
#118=ORIENTED_EDGE('',*,*,#103,.T.) ;
#119=ORIENTED_EDGE('',*,*,#110,.T.) ;
#120=ORIENTED_EDGE('',*,*,#115,.F.) ;
#134=ORIENTED_EDGE('',*,*,#127,.F.) ;
#135=ORIENTED_EDGE('',*,*,#115,.T.) ;
#136=ORIENTED_EDGE('',*,*,#132,.T.) ;
#137=ORIENTED_EDGE('',*,*,#103,.F.) ;
#174=ORIENTED_EDGE('',*,*,#153,.F.) ;
#175=ORIENTED_EDGE('',*,*,#160,.T.) ;
#176=ORIENTED_EDGE('',*,*,#167,.T.) ;
#177=ORIENTED_EDGE('',*,*,#172,.F.) ;
#191=ORIENTED_EDGE('',*,*,#184,.F.) ;
#192=ORIENTED_EDGE('',*,*,#172,.T.) ;
#193=ORIENTED_EDGE('',*,*,#189,.T.) ;
#194=ORIENTED_EDGE('',*,*,#160,.F.) ;
#226=ORIENTED_EDGE('',*,*,#205,.F.) ;
#227=ORIENTED_EDGE('',*,*,#212,.T.) ;
#228=ORIENTED_EDGE('',*,*,#219,.T.) ;
#229=ORIENTED_EDGE('',*,*,#224,.F.) ;
#243=ORIENTED_EDGE('',*,*,#236,.F.) ;
#244=ORIENTED_EDGE('',*,*,#224,.T.) ;
#245=ORIENTED_EDGE('',*,*,#241,.T.) ;
#246=ORIENTED_EDGE('',*,*,#212,.F.) ;
#255=ORIENTED_EDGE('',*,*,#184,.T.) ;
#256=ORIENTED_EDGE('',*,*,#153,.T.) ;
#259=ORIENTED_EDGE('',*,*,#110,.F.) ;
#260=ORIENTED_EDGE('',*,*,#132,.F.) ;
#269=ORIENTED_EDGE('',*,*,#167,.F.) ;
#270=ORIENTED_EDGE('',*,*,#189,.F.) ;
#273=ORIENTED_EDGE('',*,*,#236,.T.) ;
#274=ORIENTED_EDGE('',*,*,#205,.T.) ;
#297=ORIENTED_EDGE('',*,*,#290,.F.) ;
#298=ORIENTED_EDGE('',*,*,#295,.F.) ;
#301=ORIENTED_EDGE('',*,*,#127,.T.) ;
#302=ORIENTED_EDGE('',*,*,#96,.T.) ;
#330=ORIENTED_EDGE('',*,*,#316,.T.) ;
#331=ORIENTED_EDGE('',*,*,#295,.T.) ;
#332=ORIENTED_EDGE('',*,*,#323,.F.) ;
#333=ORIENTED_EDGE('',*,*,#328,.F.) ;
#347=ORIENTED_EDGE('',*,*,#323,.T.) ;
#348=ORIENTED_EDGE('',*,*,#290,.T.) ;
#349=ORIENTED_EDGE('',*,*,#316,.F.) ;
#350=ORIENTED_EDGE('',*,*,#345,.F.) ;
#373=ORIENTED_EDGE('',*,*,#366,.T.) ;
#374=ORIENTED_EDGE('',*,*,#371,.T.) ;
#377=ORIENTED_EDGE('',*,*,#219,.F.) ;
#378=ORIENTED_EDGE('',*,*,#241,.F.) ;
#406=ORIENTED_EDGE('',*,*,#392,.T.) ;
#407=ORIENTED_EDGE('',*,*,#345,.T.) ;
#408=ORIENTED_EDGE('',*,*,#399,.F.) ;
#409=ORIENTED_EDGE('',*,*,#404,.F.) ;
#418=ORIENTED_EDGE('',*,*,#399,.T.) ;
#419=ORIENTED_EDGE('',*,*,#328,.T.) ;
#420=ORIENTED_EDGE('',*,*,#392,.F.) ;
#421=ORIENTED_EDGE('',*,*,#416,.F.) ;
#440=ORIENTED_EDGE('',*,*,#433,.T.) ;
#441=ORIENTED_EDGE('',*,*,#416,.T.) ;
#442=ORIENTED_EDGE('',*,*,#438,.F.) ;
#443=ORIENTED_EDGE('',*,*,#366,.F.) ;
#452=ORIENTED_EDGE('',*,*,#438,.T.) ;
#453=ORIENTED_EDGE('',*,*,#404,.T.) ;
#454=ORIENTED_EDGE('',*,*,#433,.F.) ;
#455=ORIENTED_EDGE('',*,*,#371,.F.) ;
#261=FACE_BOUND('',#258,.T.) ;
#275=FACE_BOUND('',#272,.T.) ;
#303=FACE_BOUND('',#300,.T.) ;
#379=FACE_BOUND('',#376,.T.) ;
#82=CLOSED_SHELL('Closed Shell',(#122,#139,#179,#196,#231,#248,#262,#276,#304,#335,#352,#380,#411,#423,#445,#457)) ;
#53=VECTOR('Line Direction',#52,1.) ;
#65=VECTOR('Line Direction',#64,1.) ;
#74=VECTOR('Line Direction',#73,1.) ;
#99=VECTOR('Line Direction',#98,1.) ;
#113=VECTOR('Line Direction',#112,1.) ;
#156=VECTOR('Line Direction',#155,1.) ;
#170=VECTOR('Line Direction',#169,1.) ;
#208=VECTOR('Line Direction',#207,1.) ;
#222=VECTOR('Line Direction',#221,1.) ;
#312=VECTOR('Line Direction',#311,1.) ;
#319=VECTOR('Line Direction',#318,1.) ;
#388=VECTOR('Line Direction',#387,1.) ;
#395=VECTOR('Line Direction',#394,1.) ;
#431=VECTOR('Line Direction',#430,1.) ;
#436=VECTOR('Line Direction',#435,1.) ;
#459=ADVANCED_BREP_SHAPE_REPRESENTATION('NONE',(#458),#46) ;
#49=SHAPE_REPRESENTATION(' ',(#48),#46) ;
#122=ADVANCED_FACE('PartBody',(#121),#87,.F.) ;
#139=ADVANCED_FACE('PartBody',(#138),#87,.F.) ;
#179=ADVANCED_FACE('PartBody',(#178),#144,.F.) ;
#196=ADVANCED_FACE('PartBody',(#195),#144,.F.) ;
#231=ADVANCED_FACE('PartBody',(#230),#87,.F.) ;
#248=ADVANCED_FACE('PartBody',(#247),#87,.F.) ;
#262=ADVANCED_FACE('PartBody',(#257,#261),#253,.T.) ;
#276=ADVANCED_FACE('PartBody',(#271,#275),#267,.F.) ;
#304=ADVANCED_FACE('PartBody',(#299,#303),#281,.F.) ;
#335=ADVANCED_FACE('PartBody',(#334),#309,.T.) ;
#352=ADVANCED_FACE('PartBody',(#351),#340,.T.) ;
#380=ADVANCED_FACE('PartBody',(#375,#379),#357,.T.) ;
#411=ADVANCED_FACE('PartBody',(#410),#385,.T.) ;
#423=ADVANCED_FACE('PartBody',(#422),#385,.T.) ;
#445=ADVANCED_FACE('PartBody',(#444),#428,.T.) ;
#457=ADVANCED_FACE('PartBody',(#456),#450,.T.) ;
#4=APPLICATION_PROTOCOL_DEFINITION('international standard','config_control_design',1994,#1) ;
#32=APPROVAL_DATE_TIME(#13,#21) ;
#458=MANIFOLD_SOLID_BREP('PartBody',#82) ;
#11=CALENDAR_DATE(2017,19,3) ;
#30=CC_DESIGN_APPROVAL(#21,(#16,#6,#14)) ;
#18=CC_DESIGN_DATE_AND_TIME_ASSIGNMENT(#13,#17,(#16)) ;
#29=CC_DESIGN_DATE_AND_TIME_ASSIGNMENT(#13,#28,(#14)) ;
#17=DATE_TIME_ROLE('classification_date') ;
#28=DATE_TIME_ROLE('creation_date') ;
#27=CC_DESIGN_PERSON_AND_ORGANIZATION_ASSIGNMENT(#25,#26,(#16)) ;
#33=CC_DESIGN_PERSON_AND_ORGANIZATION_ASSIGNMENT(#25,#34,(#6)) ;
#35=CC_DESIGN_PERSON_AND_ORGANIZATION_ASSIGNMENT(#25,#36,(#6,#14)) ;
#37=CC_DESIGN_PERSON_AND_ORGANIZATION_ASSIGNMENT(#25,#38,(#5)) ;
#26=PERSON_AND_ORGANIZATION_ROLE('classification_officer') ;
#34=PERSON_AND_ORGANIZATION_ROLE('design_supplier') ;
#36=PERSON_AND_ORGANIZATION_ROLE('creator') ;
#38=PERSON_AND_ORGANIZATION_ROLE('design_owner') ;
#39=CC_DESIGN_SECURITY_CLASSIFICATION(#16,(#6)) ;
#91=CIRCLE('generated circle',#90,15.) ;
#107=CIRCLE('generated circle',#106,15.) ;
#126=CIRCLE('generated circle',#125,15.) ;
#131=CIRCLE('generated circle',#130,15.) ;
#148=CIRCLE('generated circle',#147,16.) ;
#164=CIRCLE('generated circle',#163,16.) ;
#183=CIRCLE('generated circle',#182,16.) ;
#188=CIRCLE('generated circle',#187,16.) ;
#200=CIRCLE('generated circle',#199,15.) ;
#216=CIRCLE('generated circle',#215,15.) ;
#235=CIRCLE('generated circle',#234,15.) ;
#240=CIRCLE('generated circle',#239,15.) ;
#285=CIRCLE('generated circle',#284,18.) ;
#294=CIRCLE('generated circle',#293,18.) ;
#327=CIRCLE('generated circle',#326,19.) ;
#344=CIRCLE('generated circle',#343,19.) ;
#361=CIRCLE('generated circle',#360,18.) ;
#370=CIRCLE('generated circle',#369,18.) ;
#403=CIRCLE('generated circle',#402,19.) ;
#415=CIRCLE('generated circle',#414,19.) ;
#309=CONICAL_SURFACE('Cone',#308,0.,0.785398163397) ;
#340=CONICAL_SURFACE('Cone',#339,0.,0.785398163397) ;
#428=CONICAL_SURFACE('Cone',#427,0.,0.785398163397) ;
#450=CONICAL_SURFACE('Cone',#449,0.,0.785398163397) ;
#62=SHAPE_REPRESENTATION_RELATIONSHIP(' ',' ',#49,#60) ;
#460=SHAPE_REPRESENTATION_RELATIONSHIP(' ',' ',#49,#459) ;
#87=CYLINDRICAL_SURFACE('generated cylinder',#86,15.) ;
#144=CYLINDRICAL_SURFACE('generated cylinder',#143,16.) ;
#385=CYLINDRICAL_SURFACE('generated cylinder',#384,19.) ;
#3=DESIGN_CONTEXT(' ',#1,'design') ;
#96=EDGE_CURVE('',#93,#95,#91,.T.) ;
#103=EDGE_CURVE('',#93,#102,#100,.T.) ;
#110=EDGE_CURVE('',#102,#109,#107,.T.) ;
#115=EDGE_CURVE('',#95,#109,#114,.T.) ;
#127=EDGE_CURVE('',#95,#93,#126,.T.) ;
#132=EDGE_CURVE('',#109,#102,#131,.T.) ;
#153=EDGE_CURVE('',#150,#152,#148,.T.) ;
#160=EDGE_CURVE('',#150,#159,#157,.T.) ;
#167=EDGE_CURVE('',#159,#166,#164,.T.) ;
#172=EDGE_CURVE('',#152,#166,#171,.T.) ;
#184=EDGE_CURVE('',#152,#150,#183,.T.) ;
#189=EDGE_CURVE('',#166,#159,#188,.T.) ;
#205=EDGE_CURVE('',#202,#204,#200,.T.) ;
#212=EDGE_CURVE('',#202,#211,#209,.T.) ;
#219=EDGE_CURVE('',#211,#218,#216,.T.) ;
#224=EDGE_CURVE('',#204,#218,#223,.T.) ;
#236=EDGE_CURVE('',#204,#202,#235,.T.) ;
#241=EDGE_CURVE('',#218,#211,#240,.T.) ;
#290=EDGE_CURVE('',#287,#289,#285,.T.) ;
#295=EDGE_CURVE('',#289,#287,#294,.T.) ;
#316=EDGE_CURVE('',#315,#289,#313,.F.) ;
#323=EDGE_CURVE('',#322,#287,#320,.F.) ;
#328=EDGE_CURVE('',#315,#322,#327,.T.) ;
#345=EDGE_CURVE('',#322,#315,#344,.T.) ;
#366=EDGE_CURVE('',#363,#365,#361,.T.) ;
#371=EDGE_CURVE('',#365,#363,#370,.T.) ;
#392=EDGE_CURVE('',#391,#322,#389,.F.) ;
#399=EDGE_CURVE('',#398,#315,#396,.F.) ;
#404=EDGE_CURVE('',#391,#398,#403,.T.) ;
#416=EDGE_CURVE('',#398,#391,#415,.T.) ;
#433=EDGE_CURVE('',#363,#398,#432,.T.) ;
#438=EDGE_CURVE('',#365,#391,#437,.T.) ;
#116=EDGE_LOOP('',(#117,#118,#119,#120)) ;
#133=EDGE_LOOP('',(#134,#135,#136,#137)) ;
#173=EDGE_LOOP('',(#174,#175,#176,#177)) ;
#190=EDGE_LOOP('',(#191,#192,#193,#194)) ;
#225=EDGE_LOOP('',(#226,#227,#228,#229)) ;
#242=EDGE_LOOP('',(#243,#244,#245,#246)) ;
#254=EDGE_LOOP('',(#255,#256)) ;
#258=EDGE_LOOP('',(#259,#260)) ;
#268=EDGE_LOOP('',(#269,#270)) ;
#272=EDGE_LOOP('',(#273,#274)) ;
#296=EDGE_LOOP('',(#297,#298)) ;
#300=EDGE_LOOP('',(#301,#302)) ;
#329=EDGE_LOOP('',(#330,#331,#332,#333)) ;
#346=EDGE_LOOP('',(#347,#348,#349,#350)) ;
#372=EDGE_LOOP('',(#373,#374)) ;
#376=EDGE_LOOP('',(#377,#378)) ;
#405=EDGE_LOOP('',(#406,#407,#408,#409)) ;
#417=EDGE_LOOP('',(#418,#419,#420,#421)) ;
#439=EDGE_LOOP('',(#440,#441,#442,#443)) ;
#451=EDGE_LOOP('',(#452,#453,#454,#455)) ;
#121=FACE_OUTER_BOUND('',#116,.T.) ;
#138=FACE_OUTER_BOUND('',#133,.T.) ;
#178=FACE_OUTER_BOUND('',#173,.T.) ;
#195=FACE_OUTER_BOUND('',#190,.T.) ;
#230=FACE_OUTER_BOUND('',#225,.T.) ;
#247=FACE_OUTER_BOUND('',#242,.T.) ;
#257=FACE_OUTER_BOUND('',#254,.T.) ;
#271=FACE_OUTER_BOUND('',#268,.T.) ;
#299=FACE_OUTER_BOUND('',#296,.T.) ;
#334=FACE_OUTER_BOUND('',#329,.T.) ;
#351=FACE_OUTER_BOUND('',#346,.T.) ;
#375=FACE_OUTER_BOUND('',#372,.T.) ;
#410=FACE_OUTER_BOUND('',#405,.T.) ;
#422=FACE_OUTER_BOUND('',#417,.T.) ;
#444=FACE_OUTER_BOUND('',#439,.T.) ;
#456=FACE_OUTER_BOUND('',#451,.T.) ;
#61=GEOMETRIC_SET('NONE',(#59,#71,#80,#81)) ;
#60=GEOMETRICALLY_BOUNDED_SURFACE_SHAPE_REPRESENTATION('NONE',(#61),#46) ;
#45=UNCERTAINTY_MEASURE_WITH_UNIT(LENGTH_MEASURE(0.005),#41,'distance_accuracy_value','CONFUSED CURVE UNCERTAINTY') ;
#54=LINE('Line',#51,#53) ;
#66=LINE('Line',#63,#65) ;
#75=LINE('Line',#72,#74) ;
#100=LINE('Line',#97,#99) ;
#114=LINE('Line',#111,#113) ;
#157=LINE('Line',#154,#156) ;
#171=LINE('Line',#168,#170) ;
#209=LINE('Line',#206,#208) ;
#223=LINE('Line',#220,#222) ;
#313=LINE('Line',#310,#312) ;
#320=LINE('Line',#317,#319) ;
#389=LINE('Line',#386,#388) ;
#396=LINE('Line',#393,#395) ;
#432=LINE('Line',#429,#431) ;
#437=LINE('Line',#434,#436) ;
#2=MECHANICAL_CONTEXT(' ',#1,'mechanical') ;
#24=PERSONAL_ADDRESS(' ',' ',' ',' ',' ',' ',' ',' ',' ',' ',' ',' ',(#22),' ') ;
#253=PLANE('Plane',#252) ;
#267=PLANE('Plane',#266) ;
#281=PLANE('Plane',#280) ;
#357=PLANE('Plane',#356) ;
#43=PLANE_ANGLE_MEASURE_WITH_UNIT(PLANE_ANGLE_MEASURE(0.0174532925199),#42) ;
#7=PRODUCT_CATEGORY('part',$) ;
#9=PRODUCT_CATEGORY_RELATIONSHIP(' ',' ',#7,#8) ;
#6=PRODUCT_DEFINITION_FORMATION_WITH_SPECIFIED_SOURCE('',' ',#5,.NOT_KNOWN.) ;
#8=PRODUCT_RELATED_PRODUCT_CATEGORY('detail',$,(#5)) ;
#50=SHAPE_DEFINITION_REPRESENTATION(#40,#49) ;
#57=TRIMMED_CURVE('',#54,(#55),(#56),.T.,.CARTESIAN.) ;
#69=TRIMMED_CURVE('',#66,(#67),(#68),.T.,.CARTESIAN.) ;
#78=TRIMMED_CURVE('',#75,(#76),(#77),.T.,.CARTESIAN.) ;
#93=VERTEX_POINT('',#92) ;
#95=VERTEX_POINT('',#94) ;
#102=VERTEX_POINT('',#101) ;
#109=VERTEX_POINT('',#108) ;
#150=VERTEX_POINT('',#149) ;
#152=VERTEX_POINT('',#151) ;
#159=VERTEX_POINT('',#158) ;
#166=VERTEX_POINT('',#165) ;
#202=VERTEX_POINT('',#201) ;
#204=VERTEX_POINT('',#203) ;
#211=VERTEX_POINT('',#210) ;
#218=VERTEX_POINT('',#217) ;
#287=VERTEX_POINT('',#286) ;
#289=VERTEX_POINT('',#288) ;
#315=VERTEX_POINT('',#314) ;
#322=VERTEX_POINT('',#321) ;
#363=VERTEX_POINT('',#362) ;
#365=VERTEX_POINT('',#364) ;
#391=VERTEX_POINT('',#390) ;
#398=VERTEX_POINT('',#397) ;
#41=(LENGTH_UNIT()NAMED_UNIT(*)SI_UNIT(.MILLI.,.METRE.)) ;
#42=(NAMED_UNIT(*)PLANE_ANGLE_UNIT()SI_UNIT($,.RADIAN.)) ;
#44=(NAMED_UNIT(*)SI_UNIT($,.STERADIAN.)SOLID_ANGLE_UNIT()) ;
#46=(GEOMETRIC_REPRESENTATION_CONTEXT(3)GLOBAL_UNCERTAINTY_ASSIGNED_CONTEXT((#45))GLOBAL_UNIT_ASSIGNED_CONTEXT((#41,#42,#44))REPRESENTATION_CONTEXT(' ',' ')) ;
ENDSEC;
END-ISO-10303-21;
